jump to navigation

Guitar tab – Celes’s theme October 14, 2008

Posted by thejinx in music.
Tags: , , , , , , , , , , , , , , , , , ,
trackback

Well, I signed up for one Game Tabs to share a guitar tab I transcribed, but I happened to come into this hobby while the site’s submission process is down, so I’ll share it with all of you instead.  This is the first song I noodled my way through on guitar, Celes’s theme from Final Fantasy VI, and as I wasn’t satisfied with the tabs I found when I started looking for them, I decided to transcribe my version.  While I wasn’t particularly fond of the performance of her theme song in the game, I loved the tune, and I think it makes a lovely guitar solo.  I wasn’t particularly, well, particular with my timing, so for those unfamiliar with the song, feel free to grow acquainted with a MIDI or the original song.

Enjoy!  And please let me know what you think.

e------------------2-0-2-3-3-2-0---------------
B--0-1-3-----0-1-3---------------3---3-3-1-0-1-
G--------0-------------------------------------
D----------------------------------------------
A----------------------------------------------
E----------------------------------------------

e---------------------------------------
B--1-1-0---0--0-0-0-------0-3---0-1-3---
G--------3----------3-1-3-------------0-
D---------------------------------------
A---------------------------------------
E---------------------------------------

e-------2-0-2-3-3-2-0----------------------------
B-0-1-3---------------3----3-3-1-0-1---1-1-0---0-
G--------------------------------------------3---
D------------------------------------------------
A------------------------------------------------
E------------------------------------------------

e--------------------------
B---0-0-0------------------
G---------2-0-2-0----------
D--------------------------
A--------------------------
E--------------------------
Advertisements

Comments»

1. Free tabs - October 14, 2008

[…] Go to the author’s original blog: Free tabs […]

2. Shooting targets - May 11, 2013

Definitely believe that which you said. Your favorite justification appeared to
be on the internet the simplest thing to be aware of.
I say to you, I certainly get annoyed while people think about worries that they plainly don’t know about. You managed to hit the nail upon the top and also defined out the whole thing without having side-effects , people can take a signal. Will probably be back to get more. Thanks


Leave a Reply

Fill in your details below or click an icon to log in:

WordPress.com Logo

You are commenting using your WordPress.com account. Log Out / Change )

Twitter picture

You are commenting using your Twitter account. Log Out / Change )

Facebook photo

You are commenting using your Facebook account. Log Out / Change )

Google+ photo

You are commenting using your Google+ account. Log Out / Change )

Connecting to %s

%d bloggers like this: