jump to navigation

Guitar tab – Melodies of Life November 15, 2008

Posted by thejinx in music.
Tags: , , , , , , , , , , , ,
trackback

I found a tab of “Melodies of Life,” the theme song from Final Fantasy IX, online, but while trying to learn how to play it, this came out instead.  I liked the tone and found it easier to play, so I thought I’d share.  Again, this tab is free to share, though a link back would be appreciated.  Hope you enjoy, and feel free to take a look at my other tabs.

e--2-0----------------------------------2-3-----2-0-----------------
B------3---0-2-3-2-0-2--------0-2-3-2-3-------0------3-2-0--------3-
G-----------------------2---2------------------------------2-0------
D--------------------------------------------------------------4----
A-------------------------------------------------------------------
E-------------------------------------------------------------------

e----2--2-0--------------0---------------------2-3-2---2-0-
B-----------3--3-2-0-2-3---------0-2-3-0-0---3-------3-----
G--2-----------------------2---2-----------2---------------
D----------------------------------------------------------
A----------------------------------------------------------
E----------------------------------------------------------

e--2-5--5-7-5-3-3-2-2-0-0-2-3---2-0---------------0-2-3-0-
B-----------------------------------3-----0-3---3---------
G---------------------------------------2-----------------
D---------------------------------------------------------
A---------------------------------------------------------
E---------------------------------------------------------

e----2--2-0--------------0---------------------2-3-2---2-0-
B-----------3--3-2-0-2-3---------0-2-3-0-0---3-------3-----
G--2-----------------------2---2-----------2---------------
D----------------------------------------------------------
A----------------------------------------------------------
E----------------------------------------------------------

e--2-5--5-7-5-3-3-2-2-0-0-2-3---2-0-------------0-2-0-----
B-----------------------------------3-----0-3---------3---
G---------------------------------------2-----------------
D---------------------------------------------------------
A---------------------------------------------------------
E---------------------------------------------------------

e-----3-2-0-------0---2-5-3-2-0---0-2-
B-----------3-2-3---------------4-----
G--2----------------------------------
D-------------------------------------
A-------------------------------------
E-------------------------------------

e--2-3-2-0---2-3-2-0-------2---5-3-0-
B--------------------3-2-3-----------
G------------------------------------
D------------------------------------
A------------------------------------
E------------------------------------

e----0-2---------------------3-2-2-0-0----------0-
B--3-----2---2-2-3-2---0---0------------3-0-2-3---
G--------------------2----------------------------
D-------------------------------------------------
A-------------------------------------------------
E-------------------------------------------------

e----0-2-5--2-------3-2-2-0-0--0-5-3-3-2-2-0-2-3-5---2-3-2---0-0------
B--3----------3-0------------------------------------------2------3-3-
G---------------------------------------------------------------------
D---------------------------------------------------------------------
A---------------------------------------------------------------------
E---------------------------------------------------------------------
Advertisements

Comments»

1. Walt Ribeiro - November 15, 2008

Wow, that must have taken alot of work!

2. Joe Acoustic - November 30, 2008

Great blog. You’ve just taken an hour of my life but it was well worth it.

I love tabs. Why make things complicated when all you want to do is bash out a tune.

There are loads of acoustic guitars listed here Acoustic Guitars and it has some tabs to download.

3. Frank Cedillos - February 3, 2010

hey there I just speak with my friend and he told that he find the best way to learn guitar at http://budurl.com/ggii


Leave a Reply

Fill in your details below or click an icon to log in:

WordPress.com Logo

You are commenting using your WordPress.com account. Log Out / Change )

Twitter picture

You are commenting using your Twitter account. Log Out / Change )

Facebook photo

You are commenting using your Facebook account. Log Out / Change )

Google+ photo

You are commenting using your Google+ account. Log Out / Change )

Connecting to %s

%d bloggers like this: