jump to navigation

And a guitar tab in a pear tree December 13, 2008

Posted by thejinx in music.
Tags: , , , , , , , , , , , ,
trackback

Finally, I am extremely delayed in posting this tab I transcribed nearly a month ago now.  This is “Wind’s Nocturne” from Lunar: Silver Star Story.  Once again, this tab is free to share, but a link back would be appreciated, and if you like this, have a look at my other tabs.  Enjoy!

e------------------------------------0----------
B--2-0-3-2--0-2-3-----------0--0-2-3-----2-3-3--
G-----------------2-2---0-2---------------------
D-----------------------------------------------
A-----------------------------------------------
E-----------------------------------------------

e---------------0---------------------0----------------
B--2------0-2-3----0-0----2-----0-2-3-----2-2-----2-0--
G-----2-2--------------------2-2--------------2-2------
D------------------------------------------------------
A------------------------------------------------------
E------------------------------------------------------

e------0---------------------2-0--
B--0-0---3-2-0-2---3-2-0-2-3------
G---------------------------------
D---------------------------------
A---------------------------------
E---------------------------------

e--0--0-2-0-0-----0-------0-1-0-----0--
B-------------3-2---3---3-------3-2----
G--------------------------------------
D--------------------------------------
A--------------------------------------
E--------------------------------------

e--------------2-0--0-2-3-0-2-3-2-3-2--
B--2-3-2-0-2-3-------------------------
G--------------------------------------
D--------------------------------------
A--------------------------------------
E--------------------------------------

e--2-2-2-0-3-2-0---2--0-0---2-2-2-0-3-2-0-2-0------
B----------------3----------------------------3-3--
G--------------------------------------------------
D--------------------------------------------------
A--------------------------------------------------
E--------------------------------------------------

e---------------0--------------0--2-3-0--
B--0-3-2--0-------3-2-3--0-2-3-----------
G-----------2-2--------------------------
D----------------------------------------
A----------------------------------------
E----------------------------------------

e--2-2-2-0-3-2-0---2--0-0---2-2-2-0-3-2-0-2-0------
B----------------3----------------------------3-3--
G--------------------------------------------------
D--------------------------------------------------
A--------------------------------------------------
E--------------------------------------------------

e---------------0-------0-2-------2--------2-0--------
B--0-3-2--0-------3-2-3-----3-3-----3-3--------3-2-3--
G-----------2-2---------------------------------------
D-----------------------------------------------------
A-----------------------------------------------------
E-----------------------------------------------------
Advertisements

Comments»

1. lifeischange - December 14, 2008

I took your tag-challege. 🙂


Leave a Reply

Fill in your details below or click an icon to log in:

WordPress.com Logo

You are commenting using your WordPress.com account. Log Out / Change )

Twitter picture

You are commenting using your Twitter account. Log Out / Change )

Facebook photo

You are commenting using your Facebook account. Log Out / Change )

Google+ photo

You are commenting using your Google+ account. Log Out / Change )

Connecting to %s

%d bloggers like this: