jump to navigation

Guitar tab – My Home, Sweet Home January 17, 2009

Posted by thejinx in music.
Tags: , , , , , , , ,
trackback

Latest transcription comes from Final Fantasy V, the song “My Home, Sweet Home.”  As always, this tab is free to share, though a link back would be appreciated, and if you like this one, take a look at my other tabs.

e----------------------------------------------------------
B--------1-0-----0--------------------1-0-----0---3--1--3--
G----2-2-----2-0---2--------------2-2-----2-0---2----------
D--2-----------------2--0--2----2--------------------------
A----------------------------------------------------------
E----------------------------------------------------------

e------0---------------------------------------------------
B--3-3---1-----1-0--------------------1-0-----0---3--1--3--
G----------2-0-----2--------------2-2-----2-0---2----------
D--------------------2--0--2----2--------------------------
A----------------------------------------------------------
E----------------------------------------------------------
Advertisements

Comments»

No comments yet — be the first.

Leave a Reply

Fill in your details below or click an icon to log in:

WordPress.com Logo

You are commenting using your WordPress.com account. Log Out / Change )

Twitter picture

You are commenting using your Twitter account. Log Out / Change )

Facebook photo

You are commenting using your Facebook account. Log Out / Change )

Google+ photo

You are commenting using your Google+ account. Log Out / Change )

Connecting to %s

%d bloggers like this: