Guitar tab – Main Theme of Final Fantasy VII

Been a little while since I’ve even played with the guitar recently, but I picked it up last night and this came out, the Main Theme of Final Fantasy VII.

By the way, if any of you reading out there have any recommendations for at-home programs to learn guitar – computer software, books, etc. – please let me know.

As always, this tab is free to share, but a link back would be appreciated, and be sure to take a look at my other tabs.  Enjoy!

e---------2--0--------------------------2-0---
B-------0-------------0-3-1-----------0-------
G--0--2-----------0-2-------0-2--0--2---------
D---------------------------------------------
A---------------------------------------------
E---------------------------------------------

e----------------------------
B------0-3--1---0------------
G--0-2--------0---2-0-----0--
D-----------------------4----
A----------------------------
E----------------------------

e--------------------------------------0--------------
B--0-1-0-0-----0-1---0-------0---3-1-3-----------2-0--
G----------2-2---------2-0-2-------------0---0-0------
D-----------------------------------------------------
A-----------------------------------------------------
E-----------------------------------------------------

e------------------------------
B--0-1-0-0-----0-1--0-------0--
G----------2-2--------2-0-2----
D------------------------------
A------------------------------
E------------------------------

e--3-2-2-0-0---0-2-0----------------------
B--------------------3-----0-1--0----0----
G----------------------2-2--------2----2--
D-----------------------------------------
A-----------------------------------------
E-----------------------------------------

3 thoughts on “Guitar tab – Main Theme of Final Fantasy VII

  1. you’re truly a good webmaster. The site loading pace is amazing. It kind of feels that you’re doing
    any unique trick. In addition, The contents are masterpiece.
    you have done a great activity in this subject!

Leave a Reply

Fill in your details below or click an icon to log in:

WordPress.com Logo

You are commenting using your WordPress.com account. Log Out /  Change )

Google photo

You are commenting using your Google account. Log Out /  Change )

Twitter picture

You are commenting using your Twitter account. Log Out /  Change )

Facebook photo

You are commenting using your Facebook account. Log Out /  Change )

Connecting to %s