jump to navigation

X-Wing Miniatures: Death Star trench run November 26, 2016

Posted by thejinx in life, photography.
Tags: , , , , , , , , , , , , , ,
add a comment

I took some shots this week of a custom made scenario my husband constructed for Star Wars X-Wing Miniatures and couldn’t resist sharing them. Enjoy!




The game board was constructed of wood with a printed graphic overlay. The turrets were printed on heavy stock paper from a free downloadable template, with painted balsa stick barrels. Backdrop is a star field Gripmat  and of course the ships themselves are from the game.

Fanart: Slight oversight April 17, 2009

Posted by thejinx in art.
Tags: , , , , , , , , , , , ,
2 comments

New art:

A little humour from The Legend of Zelda: Twilight Princess.

Picture of the week: Garnet March 16, 2009

Posted by thejinx in art.
Tags: , , , , , , , , , , , , , , ,
add a comment

New art:

A little fanart this week, of the lead female character from Final Fantasy IX, because I figure I should make more before my first convention appearance, and I’m still running a little behind on calendar images.  Hopefully I can get some more art like this done over the next couple months.

Guitar tab – Main Theme of Final Fantasy VII March 16, 2009

Posted by thejinx in music.
Tags: , , , , , , , , , , , , , , ,
3 comments

Been a little while since I’ve even played with the guitar recently, but I picked it up last night and this came out, the Main Theme of Final Fantasy VII.

By the way, if any of you reading out there have any recommendations for at-home programs to learn guitar – computer software, books, etc. – please let me know.

As always, this tab is free to share, but a link back would be appreciated, and be sure to take a look at my other tabs.  Enjoy!

e---------2--0--------------------------2-0---
B-------0-------------0-3-1-----------0-------
G--0--2-----------0-2-------0-2--0--2---------
D---------------------------------------------
A---------------------------------------------
E---------------------------------------------

e----------------------------
B------0-3--1---0------------
G--0-2--------0---2-0-----0--
D-----------------------4----
A----------------------------
E----------------------------

e--------------------------------------0--------------
B--0-1-0-0-----0-1---0-------0---3-1-3-----------2-0--
G----------2-2---------2-0-2-------------0---0-0------
D-----------------------------------------------------
A-----------------------------------------------------
E-----------------------------------------------------

e------------------------------
B--0-1-0-0-----0-1--0-------0--
G----------2-2--------2-0-2----
D------------------------------
A------------------------------
E------------------------------

e--3-2-2-0-0---0-2-0----------------------
B--------------------3-----0-1--0----0----
G----------------------2-2--------2----2--
D-----------------------------------------
A-----------------------------------------
E-----------------------------------------

And a guitar tab in a pear tree December 13, 2008

Posted by thejinx in music.
Tags: , , , , , , , , , , , ,
1 comment so far

Finally, I am extremely delayed in posting this tab I transcribed nearly a month ago now.  This is “Wind’s Nocturne” from Lunar: Silver Star Story.  Once again, this tab is free to share, but a link back would be appreciated, and if you like this, have a look at my other tabs.  Enjoy!

e------------------------------------0----------
B--2-0-3-2--0-2-3-----------0--0-2-3-----2-3-3--
G-----------------2-2---0-2---------------------
D-----------------------------------------------
A-----------------------------------------------
E-----------------------------------------------

e---------------0---------------------0----------------
B--2------0-2-3----0-0----2-----0-2-3-----2-2-----2-0--
G-----2-2--------------------2-2--------------2-2------
D------------------------------------------------------
A------------------------------------------------------
E------------------------------------------------------

e------0---------------------2-0--
B--0-0---3-2-0-2---3-2-0-2-3------
G---------------------------------
D---------------------------------
A---------------------------------
E---------------------------------

e--0--0-2-0-0-----0-------0-1-0-----0--
B-------------3-2---3---3-------3-2----
G--------------------------------------
D--------------------------------------
A--------------------------------------
E--------------------------------------

e--------------2-0--0-2-3-0-2-3-2-3-2--
B--2-3-2-0-2-3-------------------------
G--------------------------------------
D--------------------------------------
A--------------------------------------
E--------------------------------------

e--2-2-2-0-3-2-0---2--0-0---2-2-2-0-3-2-0-2-0------
B----------------3----------------------------3-3--
G--------------------------------------------------
D--------------------------------------------------
A--------------------------------------------------
E--------------------------------------------------

e---------------0--------------0--2-3-0--
B--0-3-2--0-------3-2-3--0-2-3-----------
G-----------2-2--------------------------
D----------------------------------------
A----------------------------------------
E----------------------------------------

e--2-2-2-0-3-2-0---2--0-0---2-2-2-0-3-2-0-2-0------
B----------------3----------------------------3-3--
G--------------------------------------------------
D--------------------------------------------------
A--------------------------------------------------
E--------------------------------------------------

e---------------0-------0-2-------2--------2-0--------
B--0-3-2--0-------3-2-3-----3-3-----3-3--------3-2-3--
G-----------2-2---------------------------------------
D-----------------------------------------------------
A-----------------------------------------------------
E-----------------------------------------------------

Guitar tab – Melodies of Life November 15, 2008

Posted by thejinx in music.
Tags: , , , , , , , , , , , ,
3 comments

I found a tab of “Melodies of Life,” the theme song from Final Fantasy IX, online, but while trying to learn how to play it, this came out instead.  I liked the tone and found it easier to play, so I thought I’d share.  Again, this tab is free to share, though a link back would be appreciated.  Hope you enjoy, and feel free to take a look at my other tabs.

e--2-0----------------------------------2-3-----2-0-----------------
B------3---0-2-3-2-0-2--------0-2-3-2-3-------0------3-2-0--------3-
G-----------------------2---2------------------------------2-0------
D--------------------------------------------------------------4----
A-------------------------------------------------------------------
E-------------------------------------------------------------------

e----2--2-0--------------0---------------------2-3-2---2-0-
B-----------3--3-2-0-2-3---------0-2-3-0-0---3-------3-----
G--2-----------------------2---2-----------2---------------
D----------------------------------------------------------
A----------------------------------------------------------
E----------------------------------------------------------

e--2-5--5-7-5-3-3-2-2-0-0-2-3---2-0---------------0-2-3-0-
B-----------------------------------3-----0-3---3---------
G---------------------------------------2-----------------
D---------------------------------------------------------
A---------------------------------------------------------
E---------------------------------------------------------

e----2--2-0--------------0---------------------2-3-2---2-0-
B-----------3--3-2-0-2-3---------0-2-3-0-0---3-------3-----
G--2-----------------------2---2-----------2---------------
D----------------------------------------------------------
A----------------------------------------------------------
E----------------------------------------------------------

e--2-5--5-7-5-3-3-2-2-0-0-2-3---2-0-------------0-2-0-----
B-----------------------------------3-----0-3---------3---
G---------------------------------------2-----------------
D---------------------------------------------------------
A---------------------------------------------------------
E---------------------------------------------------------

e-----3-2-0-------0---2-5-3-2-0---0-2-
B-----------3-2-3---------------4-----
G--2----------------------------------
D-------------------------------------
A-------------------------------------
E-------------------------------------

e--2-3-2-0---2-3-2-0-------2---5-3-0-
B--------------------3-2-3-----------
G------------------------------------
D------------------------------------
A------------------------------------
E------------------------------------

e----0-2---------------------3-2-2-0-0----------0-
B--3-----2---2-2-3-2---0---0------------3-0-2-3---
G--------------------2----------------------------
D-------------------------------------------------
A-------------------------------------------------
E-------------------------------------------------

e----0-2-5--2-------3-2-2-0-0--0-5-3-3-2-2-0-2-3-5---2-3-2---0-0------
B--3----------3-0------------------------------------------2------3-3-
G---------------------------------------------------------------------
D---------------------------------------------------------------------
A---------------------------------------------------------------------
E---------------------------------------------------------------------

Guitar tab – Celes’s theme October 14, 2008

Posted by thejinx in music.
Tags: , , , , , , , , , , , , , , , , , ,
2 comments

Well, I signed up for one Game Tabs to share a guitar tab I transcribed, but I happened to come into this hobby while the site’s submission process is down, so I’ll share it with all of you instead.  This is the first song I noodled my way through on guitar, Celes’s theme from Final Fantasy VI, and as I wasn’t satisfied with the tabs I found when I started looking for them, I decided to transcribe my version.  While I wasn’t particularly fond of the performance of her theme song in the game, I loved the tune, and I think it makes a lovely guitar solo.  I wasn’t particularly, well, particular with my timing, so for those unfamiliar with the song, feel free to grow acquainted with a MIDI or the original song.

Enjoy!  And please let me know what you think.

e------------------2-0-2-3-3-2-0---------------
B--0-1-3-----0-1-3---------------3---3-3-1-0-1-
G--------0-------------------------------------
D----------------------------------------------
A----------------------------------------------
E----------------------------------------------

e---------------------------------------
B--1-1-0---0--0-0-0-------0-3---0-1-3---
G--------3----------3-1-3-------------0-
D---------------------------------------
A---------------------------------------
E---------------------------------------

e-------2-0-2-3-3-2-0----------------------------
B-0-1-3---------------3----3-3-1-0-1---1-1-0---0-
G--------------------------------------------3---
D------------------------------------------------
A------------------------------------------------
E------------------------------------------------

e--------------------------
B---0-0-0------------------
G---------2-0-2-0----------
D--------------------------
A--------------------------
E--------------------------